  0
SECTION
  2
HEADER
  9
$ACADVER
  1
AC1015
  9
$ACADMAINTVER
 70
     6
  9
$DWGCODEPAGE
  3
ANSI_1254
  9
$INSBASE
 10
0.0
 20
0.0
 30
0.0
  9
$EXTMIN
 10
0.0
 20
0.0
 30
0.0
  9
$EXTMAX
 10
279.4
 20
215.9
 30
0.0
  9
$LIMMIN
 10
0.0
 20
0.0
  9
$LIMMAX
 10
279.4
 20
215.9
  9
$ORTHOMODE
 70
     0
  9
$REGENMODE
 70
     1
  9
$FILLMODE
 70
     1
  9
$QTEXTMODE
 70
     0
  9
$MIRRTEXT
 70
     1
  9
$LTSCALE
 40
1.0
  9
$ATTMODE
 70
     1
  9
$TEXTSIZE
 40
3.5
  9
$TRACEWID
 40
1.0
  9
$TEXTSTYLE
  7
Standard
  9
$CLAYER
  8
0
  9
$CELTYPE
  6
ByLayer
  9
$CECOLOR
 62
   256
  9
$CELTSCALE
 40
1.0
  9
$DISPSILH
 70
     0
  9
$DIMSCALE
 40
1.0
  9
$DIMASZ
 40
3.5
  9
$DIMEXO
 40
1.0
  9
$DIMDLI
 40
3.75
  9
$DIMRND
 40
0.0
  9
$DIMDLE
 40
0.0
  9
$DIMEXE
 40
1.0
  9
$DIMTP
 40
0.0
  9
$DIMTM
 40
0.0
  9
$DIMTXT
 40
3.5
  9
$DIMCEN
 40
2.5
  9
$DIMTSZ
 40
0.0
  9
$DIMTOL
 70
     0
  9
$DIMLIM
 70
     0
  9
$DIMTIH
 70
     1
  9
$DIMTOH
 70
     1
  9
$DIMSE1
 70
     0
  9
$DIMSE2
 70
     0
  9
$DIMTAD
 70
     1
  9
$DIMZIN
 70
     0
  9
$DIMBLK
  1

  9
$DIMASO
 70
     1
  9
$DIMSHO
 70
     1
  9
$DIMPOST
  1

  9
$DIMAPOST
  1

  9
$DIMALT
 70
     0
  9
$DIMALTD
 70
     3
  9
$DIMALTF
 40
0.0393700787
  9
$DIMLFAC
 40
1.0
  9
$DIMTOFL
 70
     1
  9
$DIMTVP
 40
0.0
  9
$DIMTIX
 70
     0
  9
$DIMSOXD
 70
     0
  9
$DIMSAH
 70
     0
  9
$DIMBLK1
  1

  9
$DIMBLK2
  1

  9
$DIMSTYLE
  2
ISO-25
  9
$DIMCLRD
 70
     0
  9
$DIMCLRE
 70
     0
  9
$DIMCLRT
 70
     0
  9
$DIMTFAC
 40
1.0
  9
$DIMGAP
 40
1.524
  9
$DIMJUST
 70
     0
  9
$DIMSD1
 70
     0
  9
$DIMSD2
 70
     0
  9
$DIMTOLJ
 70
     0
  9
$DIMTZIN
 70
     0
  9
$DIMALTZ
 70
     0
  9
$DIMALTTZ
 70
     0
  9
$DIMUPT
 70
     0
  9
$DIMDEC
 70
     2
  9
$DIMTDEC
 70
     2
  9
$DIMALTU
 70
     2
  9
$DIMALTTD
 70
     3
  9
$DIMTXSTY
  7
Standard
  9
$DIMAUNIT
 70
     0
  9
$DIMADEC
 70
     2
  9
$DIMALTRND
 40
0.0
  9
$DIMAZIN
 70
     0
  9
$DIMDSEP
 70
    44
  9
$DIMATFIT
 70
     3
  9
$DIMFRAC
 70
     0
  9
$DIMLDRBLK
  1

  9
$DIMLUNIT
 70
     2
  9
$DIMLWD
 70
    -2
  9
$DIMLWE
 70
    -2
  9
$DIMTMOVE
 70
     0
  9
$LUNITS
 70
     2
  9
$LUPREC
 70
     2
  9
$SKETCHINC
 40
1.0
  9
$FILLETRAD
 40
10.0
  9
$AUNITS
 70
     0
  9
$AUPREC
 70
     2
  9
$MENU
  1
.
  9
$ELEVATION
 40
0.0
  9
$PELEVATION
 40
0.0
  9
$THICKNESS
 40
0.0
  9
$LIMCHECK
 70
     0
  9
$CHAMFERA
 40
0.0
  9
$CHAMFERB
 40
0.0
  9
$CHAMFERC
 40
0.0
  9
$CHAMFERD
 40
0.0
  9
$SKPOLY
 70
     0
  9
$TDCREATE
 40
2460682.519542234
  9
$TDUCREATE
 40
2460682.394542234
  9
$TDUPDATE
 40
2460682.519542407
  9
$TDUUPDATE
 40
2460682.394542407
  9
$TDINDWG
 40
0.0000000116
  9
$TDUSRTIMER
 40
0.0000000116
  9
$USRTIMER
 70
     1
  9
$ANGBASE
 50
0.0
  9
$ANGDIR
 70
     0
  9
$PDMODE
 70
     0
  9
$PDSIZE
 40
-1.0
  9
$PLINEWID
 40
0.0
  9
$SPLFRAME
 70
     0
  9
$SPLINETYPE
 70
     6
  9
$SPLINESEGS
 70
     8
  9
$HANDSEED
  5
BF
  9
$SURFTAB1
 70
     6
  9
$SURFTAB2
 70
     6
  9
$SURFTYPE
 70
     6
  9
$SURFU
 70
     6
  9
$SURFV
 70
     6
  9
$UCSBASE
  2

  9
$UCSNAME
  2

  9
$UCSORG
 10
0.0
 20
0.0
 30
0.0
  9
$UCSXDIR
 10
1.0
 20
0.0
 30
0.0
  9
$UCSYDIR
 10
0.0
 20
1.0
 30
0.0
  9
$UCSORTHOREF
  2

  9
$UCSORTHOVIEW
 70
     0
  9
$UCSORGTOP
 10
0.0
 20
0.0
 30
0.0
  9
$UCSORGBOTTOM
 10
0.0
 20
0.0
 30
0.0
  9
$UCSORGLEFT
 10
0.0
 20
0.0
 30
0.0
  9
$UCSORGRIGHT
 10
0.0
 20
0.0
 30
0.0
  9
$UCSORGFRONT
 10
0.0
 20
0.0
 30
0.0
  9
$UCSORGBACK
 10
0.0
 20
0.0
 30
0.0
  9
$PUCSBASE
  2

  9
$PUCSNAME
  2

  9
$PUCSORG
 10
0.0
 20
0.0
 30
0.0
  9
$PUCSXDIR
 10
1.0
 20
0.0
 30
0.0
  9
$PUCSYDIR
 10
0.0
 20
1.0
 30
0.0
  9
$PUCSORTHOREF
  2

  9
$PUCSORTHOVIEW
 70
     0
  9
$PUCSORGTOP
 10
0.0
 20
0.0
 30
0.0
  9
$PUCSORGBOTTOM
 10
0.0
 20
0.0
 30
0.0
  9
$PUCSORGLEFT
 10
0.0
 20
0.0
 30
0.0
  9
$PUCSORGRIGHT
 10
0.0
 20
0.0
 30
0.0
  9
$PUCSORGFRONT
 10
0.0
 20
0.0
 30
0.0
  9
$PUCSORGBACK
 10
0.0
 20
0.0
 30
0.0
  9
$USERI1
 70
     0
  9
$USERI2
 70
     0
  9
$USERI3
 70
     0
  9
$USERI4
 70
     0
  9
$USERI5
 70
     0
  9
$USERR1
 40
0.0
  9
$USERR2
 40
0.0
  9
$USERR3
 40
0.0
  9
$USERR4
 40
0.0
  9
$USERR5
 40
0.0
  9
$WORLDVIEW
 70
     1
  9
$SHADEDGE
 70
     3
  9
$SHADEDIF
 70
    70
  9
$TILEMODE
 70
     1
  9
$MAXACTVP
 70
    64
  9
$PINSBASE
 10
0.0
 20
0.0
 30
0.0
  9
$PLIMCHECK
 70
     0
  9
$PEXTMIN
 10
1.0000000000E+20
 20
1.0000000000E+20
 30
1.0000000000E+20
  9
$PEXTMAX
 10
-1.0000000000E+20
 20
-1.0000000000E+20
 30
-1.0000000000E+20
  9
$PLIMMIN
 10
0.0
 20
0.0
  9
$PLIMMAX
 10
420.0
 20
297.0
  9
$UNITMODE
 70
     0
  9
$VISRETAIN
 70
     1
  9
$PLINEGEN
 70
     0
  9
$PSLTSCALE
 70
     1
  9
$TREEDEPTH
 70
  3020
  9
$CMLSTYLE
  2
Standard
  9
$CMLJUST
 70
     0
  9
$CMLSCALE
 40
20.0
  9
$PROXYGRAPHICS
 70
     1
  9
$MEASUREMENT
 70
     1
  9
$CELWEIGHT
370
    -1
  9
$ENDCAPS
280
     0
  9
$JOINSTYLE
280
     0
  9
$LWDISPLAY
290
     1
  9
$INSUNITS
 70
     4
  9
$HYPERLINKBASE
  1

  9
$STYLESHEET
  1

  9
$XEDIT
290
     1
  9
$CEPSNTYPE
380
     0
  9
$PSTYLEMODE
290
     1
  9
$FINGERPRINTGUID
  2
{f6aca057-e547-4ad1-ad48-28753ad1ca19}
  9
$VERSIONGUID
  2
{FAEB1C32-E019-11D5-929B-00C0DF256EC4}
  9
$EXTNAMES
290
     1
  9
$PSVPSCALE
 40
0.0
  9
$OLESTARTUP
290
     0
  0
ENDSEC
  0
SECTION
  2
CLASSES
  0
CLASS
  1
ACDBDICTIONARYWDFLT
  2
AcDbDictionaryWithDefault
  3
ObjectDBX Classes
 90
        0
280
     0
281
     0
  0
CLASS
  1
VISUALSTYLE
  2
AcDbVisualStyle
  3
ObjectDBX Classes
 90
     4095
280
     0
281
     0
  0
CLASS
  1
MATERIAL
  2
AcDbMaterial
  3
ObjectDBX Classes
 90
     1153
280
     0
281
     0
  0
CLASS
  1
SCALE
  2
AcDbScale
  3
ObjectDBX Classes
 90
     1153
280
     0
281
     0
  0
CLASS
  1
TABLESTYLE
  2
AcDbTableStyle
  3
ObjectDBX Classes
 90
     4095
280
     0
281
     0
  0
CLASS
  1
MLEADERSTYLE
  2
AcDbMLeaderStyle
  3
ACDB_MLEADERSTYLE_CLASS
 90
     4095
280
     0
281
     0
  0
CLASS
  1
SUN
  2
AcDbSun
  3
SCENEOE
 90
     1153
280
     0
281
     0
  0
CLASS
  1
ACDBPLACEHOLDER
  2
AcDbPlaceHolder
  3
ObjectDBX Classes
 90
        0
280
     0
281
     0
  0
CLASS
  1
LAYOUT
  2
AcDbLayout
  3
ObjectDBX Classes
 90
        0
280
     0
281
     0
  0
ENDSEC
  0
SECTION
  2
TABLES
  0
TABLE
  2
VPORT
  5
8
330
0
100
AcDbSymbolTable
 70
     1
  0
VPORT
  5
29
330
8
100
AcDbSymbolTableRecord
100
AcDbViewportTableRecord
  2
*Active
 70
     0
 10
0.0
 20
0.0
 11
1.0
 21
1.0
 12
139.7
 22
107.95
 13
0.0
 23
0.0
 14
10.0
 24
10.0
 15
10.0
 25
10.0
 16
0.0
 26
0.0
 36
1.0
 17
0.0
 27
0.0
 37
0.0
 40
215.9
 41
1.2941176471
 42
50.0
 43
0.0
 44
0.0
 50
0.0
 51
0.0
 71
     0
 72
  2000
 73
     1
 74
     3
 75
     0
 76
     0
 77
     0
 78
     0
281
     0
 65
     1
110
0.0
120
0.0
130
0.0
111
1.0
121
0.0
131
0.0
112
0.0
122
1.0
132
0.0
 79
     0
146
0.0
  0
ENDTAB
  0
TABLE
  2
LTYPE
  5
5
330
0
100
AcDbSymbolTable
 70
     6
  0
LTYPE
  5
14
330
5
100
AcDbSymbolTableRecord
100
AcDbLinetypeTableRecord
  2
ByBlock
 70
     0
  3

 72
    65
 73
     0
 40
0.0
  0
LTYPE
  5
15
330
5
100
AcDbSymbolTableRecord
100
AcDbLinetypeTableRecord
  2
ByLayer
 70
     0
  3

 72
    65
 73
     0
 40
0.0
  0
LTYPE
  5
16
330
5
100
AcDbSymbolTableRecord
100
AcDbLinetypeTableRecord
  2
Continuous
 70
     0
  3
Solid line
 72
    65
 73
     0
 40
0.0
  0
LTYPE
  5
6E
330
5
100
AcDbSymbolTableRecord
100
AcDbLinetypeTableRecord
  2
HIDDEN
 70
     0
  3
Hidden __ __ __ __ __ __ __ __ __ __ __ __ __ __
 72
    65
 73
     2
 40
1.905
 49
1.27
 74
     0
 49
-0.635
 74
     0
  0
LTYPE
  5
6F
330
5
100
AcDbSymbolTableRecord
100
AcDbLinetypeTableRecord
  2
PHANTOM
 70
     0
  3
Phantom ______  __  __  ______  __  __  ______
 72
    65
 73
     6
 40
12.7
 49
6.35
 74
     0
 49
-1.27
 74
     0
 49
1.27
 74
     0
 49
-1.27
 74
     0
 49
1.27
 74
     0
 49
-1.27
 74
     0
  0
LTYPE
  5
70
330
5
100
AcDbSymbolTableRecord
100
AcDbLinetypeTableRecord
  2
CENTER
 70
     0
  3
Center ____ _ ____ _ ____ _ ____ _ ____ _ ____
 72
    65
 73
     4
 40
10.16
 49
6.35
 74
     0
 49
-1.27
 74
     0
 49
1.27
 74
     0
 49
-1.27
 74
     0
  0
LTYPE
  5
71
330
5
100
AcDbSymbolTableRecord
100
AcDbLinetypeTableRecord
  2
CENTERX2
 70
     0
  3
Center (2x) ________  __  ________  __  _____
 72
    65
 73
     4
 40
20.32
 49
12.7
 74
     0
 49
-2.54
 74
     0
 49
2.54
 74
     0
 49
-2.54
 74
     0
  0
LTYPE
  5
72
330
5
100
AcDbSymbolTableRecord
100
AcDbLinetypeTableRecord
  2
DOT2
 70
     0
  3
Dot (.5x) ........................................
 72
    65
 73
     2
 40
0.635
 49
0.0
 74
     0
 49
-0.635
 74
     0
  0
ENDTAB
  0
TABLE
  2
LAYER
  5
2
330
0
100
AcDbSymbolTable
 70
    17
  0
LAYER
  5
10
330
2
100
AcDbSymbolTableRecord
100
AcDbLayerTableRecord
  2
0
 70
     0
 62
     7
  6
Continuous
370
    -3
390
F
  0
LAYER
  5
73
330
2
100
AcDbSymbolTableRecord
100
AcDbLayerTableRecord
  2
FORMAT
 70
     0
 62
     7
  6
Continuous
370
    -3
390
F
  0
LAYER
  5
74
330
2
100
AcDbSymbolTableRecord
100
AcDbLayerTableRecord
  2
YARDIMCI_GEOMETRI
 70
     0
 62
    -6
  6
Continuous
290
     0
370
    -3
390
F
  0
LAYER
  5
75
330
2
100
AcDbSymbolTableRecord
100
AcDbLayerTableRecord
  2
SAYFA_CERCEVESI
 70
     0
 62
     7
  6
Continuous
370
    25
390
F
  0
LAYER
  5
76
330
2
100
AcDbSymbolTableRecord
100
AcDbLayerTableRecord
  2
ANTET
 70
     0
 62
     7
  6
Continuous
370
    -3
390
F
  0
LAYER
  5
77
330
2
100
AcDbSymbolTableRecord
100
AcDbLayerTableRecord
  2
OLCU
 70
     0
 62
   150
  6
Continuous
370
    -3
390
F
  0
LAYER
  5
78
330
2
100
AcDbSymbolTableRecord
100
AcDbLayerTableRecord
  2
METIN
 70
     0
 62
    96
  6
Continuous
370
    -3
390
F
  0
LAYER
  5
79
330
2
100
AcDbSymbolTableRecord
100
AcDbLayerTableRecord
  2
BALON
 70
     0
 62
     5
  6
Continuous
370
    -3
390
F
  0
LAYER
  5
7A
330
2
100
AcDbSymbolTableRecord
100
AcDbLayerTableRecord
  2
VURGU
 70
     0
 62
     7
  6
Continuous
370
    -3
390
F
  0
LAYER
  5
7B
330
2
100
AcDbSymbolTableRecord
100
AcDbLayerTableRecord
  2
SILIK
 70
     0
 62
     7
  6
Continuous
370
    -3
390
F
  0
LAYER
  5
7C
330
2
100
AcDbSymbolTableRecord
100
AcDbLayerTableRecord
  2
MODEL
 70
     0
 62
     7
  6
Continuous
370
    -3
390
F
  0
LAYER
  5
7D
330
2
100
AcDbSymbolTableRecord
100
AcDbLayerTableRecord
  2
DETAYLANDıRMA
 70
     0
 62
   190
  6
Continuous
370
    -3
390
F
  0
LAYER
  5
7E
330
2
100
AcDbSymbolTableRecord
100
AcDbLayerTableRecord
  2
TOLERANS
 70
     0
 62
   230
  6
Continuous
370
    -3
390
F
  0
LAYER
  5
7F
330
2
100
AcDbSymbolTableRecord
100
AcDbLayerTableRecord
  2
MERKEZ_CIZGILERI
 70
     0
 62
    30
  6
Continuous
370
    -3
390
F
  0
LAYER
  5
80
330
2
100
AcDbSymbolTableRecord
100
AcDbLayerTableRecord
  2
KESIT-DETAY_CIZGILERI
 70
     0
 62
     7
  6
Continuous
370
    -3
390
F
  0
LAYER
  5
81
330
2
100
AcDbSymbolTableRecord
100
AcDbLayerTableRecord
  2
\U+041E\U+0421\U+0415\U+0412\U+042B\U+0415
 70
     0
 62
     7
  6
Continuous
370
    -3
390
F
  0
LAYER
  5
82
330
2
100
AcDbSymbolTableRecord
100
AcDbLayerTableRecord
  2
\U+0412\U+041E\U+0414\U+042F\U+041D\U+042B\U+0415_\U+0417\U+041D\U+0410\U+041A\U+0418
 70
     0
 62
    11
  6
Continuous
370
    -3
390
F
  0
ENDTAB
  0
TABLE
  2
STYLE
  5
3
330
0
100
AcDbSymbolTable
 70
     1
  0
STYLE
  5
11
330
3
100
AcDbSymbolTableRecord
100
AcDbTextStyleTableRecord
  2
Standard
 70
     0
 40
0.0
 41
1.0
 50
0.0
 71
     0
 42
3.5
  3
txt
  4

  0
ENDTAB
  0
TABLE
  2
VIEW
  5
6
330
0
100
AcDbSymbolTable
 70
     0
  0
ENDTAB
  0
TABLE
  2
UCS
  5
7
330
0
100
AcDbSymbolTable
 70
     0
  0
ENDTAB
  0
TABLE
  2
APPID
  5
9
330
0
100
AcDbSymbolTable
 70
     1
  0
APPID
  5
12
330
9
100
AcDbSymbolTableRecord
100
AcDbRegAppTableRecord
  2
ACAD
 70
     0
  0
ENDTAB
  0
TABLE
  2
DIMSTYLE
  5
A
330
0
100
AcDbSymbolTable
 70
     1
100
AcDbDimStyleTable
  0
DIMSTYLE
105
27
330
A
100
AcDbSymbolTableRecord
100
AcDbDimStyleTableRecord
  2
ISO-25
 70
     0
 41
2.5
 42
0.625
 43
3.75
 44
1.25
 73
     0
 74
     0
 77
     1
 78
     8
140
2.5
141
2.5
143
0.0393700787
147
0.625
171
     3
172
     1
178
     0
271
     2
272
     2
274
     3
278
    44
283
     0
284
     8
340
11
  0
ENDTAB
  0
TABLE
  2
BLOCK_RECORD
  5
1
330
0
100
AcDbSymbolTable
 70
     2
  0
BLOCK_RECORD
  5
1F
330
1
100
AcDbSymbolTableRecord
100
AcDbBlockTableRecord
  2
*Model_Space
340
22
  0
BLOCK_RECORD
  5
1B
330
1
100
AcDbSymbolTableRecord
100
AcDbBlockTableRecord
  2
*Paper_Space
340
1E
  0
BLOCK_RECORD
  5
23
330
1
100
AcDbSymbolTableRecord
100
AcDbBlockTableRecord
  2
*Paper_Space0
340
26
  0
BLOCK_RECORD
  5
A2
330
1
100
AcDbSymbolTableRecord
100
AcDbBlockTableRecord
  2
SW_CENTERMARKSYMBOL_0
340
0
102
{BLKREFS
331
AD
102
}
  0
ENDTAB
  0
ENDSEC
  0
SECTION
  2
BLOCKS
  0
BLOCK
  5
20
330
1F
100
AcDbEntity
  8
0
100
AcDbBlockBegin
  2
*Model_Space
 70
     0
 10
0.0
 20
0.0
 30
0.0
  3
*Model_Space
  1

  0
ENDBLK
  5
21
330
1F
100
AcDbEntity
  8
0
100
AcDbBlockEnd
  0
BLOCK
  5
1C
330
1B
100
AcDbEntity
 67
     1
  8
0
100
AcDbBlockBegin
  2
*Paper_Space
 70
     0
 10
0.0
 20
0.0
 30
0.0
  3
*Paper_Space
  1

  0
ENDBLK
  5
1D
330
1B
100
AcDbEntity
 67
     1
  8
0
100
AcDbBlockEnd
  0
BLOCK
  5
24
330
23
100
AcDbEntity
  8
0
100
AcDbBlockBegin
  2
*Paper_Space0
 70
     0
 10
0.0
 20
0.0
 30
0.0
  3
*Paper_Space0
  1

  0
ENDBLK
  5
25
330
23
100
AcDbEntity
  8
0
100
AcDbBlockEnd
  0
BLOCK
  5
A3
330
A2
100
AcDbEntity
  8
0
100
AcDbBlockBegin
  2
SW_CENTERMARKSYMBOL_0
 70
     0
 10
0.0
 20
0.0
 30
0.0
  3
SW_CENTERMARKSYMBOL_0
  1

  0
LINE
  5
A5
330
A2
100
AcDbEntity
  8
FORMAT
 62
     0
100
AcDbLine
 10
0.0
 20
0.0
 30
0.0
 11
0.0
 21
2.5
 31
0.0
  0
LINE
  5
A6
330
A2
100
AcDbEntity
  8
FORMAT
 62
     0
100
AcDbLine
 10
0.0
 20
0.0
 30
0.0
 11
-2.5
 21
0.0
 31
0.0
  0
LINE
  5
A7
330
A2
100
AcDbEntity
  8
FORMAT
 62
     0
100
AcDbLine
 10
0.0
 20
0.0
 30
0.0
 11
0.0
 21
-2.5
 31
0.0
  0
LINE
  5
A8
330
A2
100
AcDbEntity
  8
FORMAT
 62
     0
100
AcDbLine
 10
0.0
 20
0.0
 30
0.0
 11
2.5
 21
0.0
 31
0.0
  0
LINE
  5
A9
330
A2
100
AcDbEntity
  8
FORMAT
 62
     0
100
AcDbLine
 10
0.0
 20
5.0
 30
0.0
 11
0.0
 21
65.0
 31
0.0
  0
LINE
  5
AA
330
A2
100
AcDbEntity
  8
FORMAT
 62
     0
100
AcDbLine
 10
-5.0
 20
0.0
 30
0.0
 11
-65.0
 21
0.0
 31
0.0
  0
LINE
  5
AB
330
A2
100
AcDbEntity
  8
FORMAT
 62
     0
100
AcDbLine
 10
0.0
 20
-5.0
 30
0.0
 11
0.0
 21
-65.0
 31
0.0
  0
LINE
  5
AC
330
A2
100
AcDbEntity
  8
FORMAT
 62
     0
100
AcDbLine
 10
5.0
 20
0.0
 30
0.0
 11
65.0
 21
0.0
 31
0.0
  0
ENDBLK
  5
A4
330
A2
100
AcDbEntity
  8
0
100
AcDbBlockEnd
  0
ENDSEC
  0
SECTION
  2
ENTITIES
  0
LINE
  5
83
330
1F
100
AcDbEntity
  8
0
  6
Continuous
 62
     7
370
    25
100
AcDbLine
 10
137.820730587
 20
266.7006119915
 30
0.0
 11
59.512579099
 21
131.0669149675
 31
0.0
  0
LINE
  5
84
330
1F
100
AcDbEntity
  8
0
  6
Continuous
 62
     7
370
    25
100
AcDbLine
 10
184.512579099
 20
97.5732659136
 30
0.0
 11
246.07390606
 21
204.2006119915
 31
0.0
  0
LINE
  5
85
330
1F
100
AcDbEntity
  8
0
  6
Continuous
 62
     7
370
    25
100
AcDbLine
 10
59.512579099
 20
131.0669149675
 30
0.0
 11
59.512579099
 21
-25.5493880085
 31
0.0
  0
LINE
  5
86
330
1F
100
AcDbEntity
  8
0
  6
Continuous
 62
     7
370
    25
100
AcDbLine
 10
184.512579099
 20
-25.5493880085
 30
0.0
 11
184.512579099
 21
97.5732659136
 31
0.0
  0
LINE
  5
87
330
1F
100
AcDbEntity
  8
0
  6
Continuous
 62
     7
370
    25
100
AcDbLine
 10
191.9473183235
 20
235.4506119915
 30
0.0
 11
246.07390606
 21
204.2006119915
 31
0.0
  0
LINE
  5
88
330
1F
100
AcDbEntity
  8
0
  6
Continuous
 62
     7
370
    25
100
AcDbLine
 10
137.820730587
 20
266.7006119915
 30
0.0
 11
191.9473183235
 21
235.4506119915
 31
0.0
  0
LINE
  5
89
330
1F
100
AcDbEntity
  8
0
  6
Continuous
 62
     7
370
    25
100
AcDbLine
 10
184.512579099
 20
97.5732659136
 30
0.0
 11
59.512579099
 21
131.0669149675
 31
0.0
  0
LINE
  5
8A
330
1F
100
AcDbEntity
  8
0
  6
Continuous
 62
     7
370
    25
100
AcDbLine
 10
122.012579099
 20
-25.5493880085
 30
0.0
 11
184.512579099
 21
-25.5493880085
 31
0.0
  0
LINE
  5
8B
330
1F
100
AcDbEntity
  8
0
  6
Continuous
 62
     7
370
    25
100
AcDbLine
 10
59.512579099
 20
-25.5493880085
 30
0.0
 11
122.012579099
 21
-25.5493880085
 31
0.0
  0
LINE
  5
8C
330
1F
100
AcDbEntity
  8
0
  6
Continuous
 62
     7
370
    25
100
AcDbLine
 10
-159.3768680544
 20
235.4506119915
 30
0.0
 11
-159.3768680544
 21
114.3200904405
 31
0.0
  0
LINE
  5
8D
330
1F
100
AcDbEntity
  8
0
  6
Continuous
 62
     7
370
    25
100
AcDbLine
 10
-34.3768680544
 20
114.3200904405
 30
0.0
 11
-34.3768680544
 21
235.4506119915
 31
0.0
  0
LINE
  5
8E
330
1F
100
AcDbEntity
  8
0
  6
Continuous
 62
     7
370
    25
100
AcDbLine
 10
-159.3768680544
 20
114.3200904405
 30
0.0
 11
-159.3768680544
 21
-25.5493880085
 31
0.0
  0
LINE
  5
8F
330
1F
100
AcDbEntity
  8
0
  6
Continuous
 62
     7
370
    25
100
AcDbLine
 10
-34.3768680544
 20
-25.5493880085
 30
0.0
 11
-34.3768680544
 21
114.3200904405
 31
0.0
  0
LWPOLYLINE
  5
90
330
1F
100
AcDbEntity
  8
0
  6
Continuous
 62
     7
370
    25
100
AcDbPolyline
 90
      100
 70
   128
 43
0.0
 10
-159.3768680544
 20
235.4506119915
 10
-159.2510353339
 20
233.4686145022
 10
-158.8740438563
 20
231.4945978173
 10
-158.2474116333
 20
229.5365106052
 10
-157.3736618917
 20
227.6022373921
 10
-156.2563129132
 20
225.6995668134
 10
-154.8998638679
 20
223.8361602521
 10
-153.3097766973
 20
222.0195209887
 10
-151.4924541212
 20
220.2569639883
 10
-149.4552138563
 20
218.555586446
 10
-147.2062591501
 20
216.9222392085
 10
-144.7546457493
 20
215.3634991888
 10
-142.110245436
 20
213.8856428826
 10
-139.2837062767
 20
212.4946210959
 10
-136.2864097472
 20
211.1960349823
 10
-133.1304249026
 20
209.9951134899
 10
-129.82845978
 20
208.8966923055
 10
-126.3938102277
 20
207.9051943837
 10
-122.840306367
 20
207.0246121366
 10
-119.1822569039
 20
206.2584913582
 10
-115.4343915124
 20
205.6099169463
 10
-111.6118015237
 20
205.0815004813
 10
-107.7298791586
 20
204.6753697098
 10
-103.8042555482
 20
204.393159977
 10
-99.8507377934
 20
204.236007642
 10
-95.8852453147
 20
204.2045455017
 10
-91.9237457508
 20
204.298900243
 10
-87.9821906623
 20
204.5186919327
 10
-84.0764513003
 20
204.8630355472
 10
-80.2222546988
 20
205.3305445365
 10
-76.435120347
 20
205.9193364066
 10
-72.7302976986
 20
206.6270403007
 10
-69.1227047665
 20
207.4508065449
 10
-65.6268680544
 20
208.3873181232
 10
-62.2568640628
 20
209.4328040341
 10
-59.0262626083
 20
210.5830544749
 10
-55.9480721828
 20
211.8334377929
 10
-53.0346875727
 20
213.1789191359
 10
-50.2978399497
 20
214.6140807253
 10
-47.748549633
 20
216.1331436721
 10
-45.397081715
 20
217.7299912457
 10
-43.2529047272
 20
219.3981935048
 10
-41.3246525135
 20
221.1310331875
 10
-39.6200894649
 20
222.92153276
 10
-38.1460792553
 20
224.7624825125
 10
-36.9085572035
 20
226.6464695902
 10
-35.912506374
 20
228.5659078419
 10
-35.1619375121
 20
230.5130683673
 10
-34.6598728936
 20
232.4801106382
 10
-34.4083341554
 20
234.4591140696
 10
-34.4083341554
 20
236.4421099133
 10
-34.6598728936
 20
238.4211133447
 10
-35.1619375121
 20
240.3881556156
 10
-35.912506374
 20
242.335316141
 10
-36.9085572035
 20
244.2547543928
 10
-38.1460792553
 20
246.1387414704
 10
-39.6200894649
 20
247.9796912229
 10
-41.3246525135
 20
249.7701907954
 10
-43.2529047272
 20
251.5030304781
 10
-45.397081715
 20
253.1712327372
 10
-47.748549633
 20
254.7680803109
 10
-50.2978399497
 20
256.2871432576
 10
-53.0346875727
 20
257.722304847
 10
-55.9480721828
 20
259.06778619
 10
-59.0262626083
 20
260.318169508
 10
-62.2568640628
 20
261.4684199488
 10
-65.6268680544
 20
262.5139058597
 10
-69.1227047665
 20
263.4504174381
 10
-72.7302976986
 20
264.2741836822
 10
-76.435120347
 20
264.9818875763
 10
-80.2222546988
 20
265.5706794465
 10
-84.0764513003
 20
266.0381884357
 10
-87.9821906623
 20
266.3825320502
 10
-91.9237457508
 20
266.60232374
 10
-95.8852453147
 20
266.6966784813
 10
-99.8507377934
 20
266.6652163409
 10
-103.8042555482
 20
266.5080640059
 10
-107.7298791586
 20
266.2258542731
 10
-111.6118015237
 20
265.8197235016
 10
-115.4343915124
 20
265.2913070366
 10
-119.1822569039
 20
264.6427326247
 10
-122.840306367
 20
263.8766118463
 10
-126.3938102277
 20
262.9960295992
 10
-129.82845978
 20
262.0045316774
 10
-133.1304249026
 20
260.906110493
 10
-136.2864097472
 20
259.7051890006
 10
-139.2837062767
 20
258.406602887
 10
-142.110245436
 20
257.0155811003
 10
-144.7546457493
 20
255.5377247942
 10
-147.2062591501
 20
253.9789847744
 10
-149.4552138563
 20
252.3456375369
 10
-151.4924541213
 20
250.6442599946
 10
-153.3097766973
 20
248.8817029942
 10
-154.8998638679
 20
247.0650637308
 10
-156.2563129132
 20
245.2016571695
 10
-157.3736618917
 20
243.2989865909
 10
-158.2474116333
 20
241.3647133777
 10
-158.8740438563
 20
239.4066261656
 10
-159.2510353339
 20
237.4326094807
 10
-159.3768680544
 20
235.4506119915
  0
ELLIPSE
  5
91
330
1F
100
AcDbEntity
  8
0
  6
Continuous
 62
     7
370
    25
100
AcDbEllipse
 10
-96.8768680544
 20
114.3200904405
 30
0.0
 11
62.49999999999999
 21
0.0
 31
0.0
210
0.0
220
0.0
230
1.0
 40
0.2679491924
 41
3.141592653589849
 42
6.283185307179586
  0
LWPOLYLINE
  5
92
330
1F
100
AcDbEntity
  8
0
  6
Continuous
 62
     7
370
    25
100
AcDbPolyline
 90
       90
 70
   128
 43
0.0
 10
-147.9768680544
 20
235.4506119915
 10
-147.8495792396
 20
237.252882395
 10
-147.4683469417
 20
239.046173978
 10
-146.8350704408
 20
240.8215526521
 10
-145.9529046886
 20
242.57017357
 10
-144.8262445904
 20
244.2833251902
 10
-143.4607031103
 20
245.9524726776
 10
-141.8630833072
 20
247.5693004233
 10
-140.0413444426
 20
249.1257534728
 10
-138.0045623278
 20
250.6140776553
 10
-135.762884109
 20
252.0268582146
 10
-133.3274777142
 20
253.3570567491
 10
-130.7104762156
 20
254.5980462765
 10
-127.924917383
 20
255.7436442494
 10
-124.9846787304
 20
256.7881433564
 10
-121.9044083789
 20
257.7263399555
 10
-118.6994520805
 20
258.5535599983
 10
-115.3857767661
 20
259.2656823163
 10
-111.9798909995
 20
259.8591591518
 10
-108.4987627324
 20
260.3310338332
 10
-104.9597347705
 20
260.6789555045
 10
-101.3804383733
 20
260.9011908374
 10
-97.7787054153
 20
260.9966326668
 10
-94.1724795488
 20
260.9648055061
 10
-90.5797268099
 20
260.8058679167
 10
-87.018346112
 20
260.5206117178
 10
-83.5060800744
 20
260.1104580412
 10
-80.06042663
 20
259.5774502521
 10
-76.6985518509
 20
258.9242437684
 10
-73.437204428
 20
258.1540928319
 10
-70.2926322304
 20
257.2708342959
 10
-67.2805013583
 20
256.2788685099
 10
-64.4158180965
 20
255.1831373977
 10
-61.7128541526
 20
253.9890998365
 10
-59.1850755572
 20
252.7027044613
 10
-56.8450755761
 20
251.3303600293
 10
-54.7045119715
 20
249.8789034913
 10
-52.7740489235
 20
248.3555659308
 10
-51.063303902
 20
246.767936539
 10
-49.5807997526
 20
245.1239248055
 10
-48.3339222364
 20
243.4317211142
 10
-47.3288832345
 20
241.6997559386
 10
-46.5706898007
 20
239.9366578423
 10
-46.0631192164
 20
238.1512104912
 10
-45.8087001728
 20
236.3523088943
 10
-45.8087001728
 20
234.5489150887
 10
-46.0631192164
 20
232.7500134917
 10
-46.5706898007
 20
230.9645661406
 10
-47.3288832345
 20
229.2014680443
 10
-48.3339222364
 20
227.4695028688
 10
-49.5807997526
 20
225.7772991774
 10
-51.063303902
 20
224.133287444
 10
-52.7740489235
 20
222.5456580521
 10
-54.7045119715
 20
221.0223204916
 10
-56.8450755761
 20
219.5708639536
 10
-59.1850755572
 20
218.1985195216
 10
-61.7128541526
 20
216.9121241465
 10
-64.4158180965
 20
215.7180865852
 10
-67.2805013583
 20
214.622355473
 10
-70.2926322304
 20
213.6303896871
 10
-73.437204428
 20
212.747131151
 10
-76.6985518509
 20
211.9769802146
 10
-80.06042663
 20
211.3237737308
 10
-83.5060800744
 20
210.7907659417
 10
-87.018346112
 20
210.3806122651
 10
-90.5797268099
 20
210.0953560662
 10
-94.1724795488
 20
209.9364184768
 10
-97.7787054153
 20
209.9045913161
 10
-101.3804383733
 20
210.0000331455
 10
-104.9597347705
 20
210.2222684784
 10
-108.4987627324
 20
210.5701901497
 10
-111.9798909995
 20
211.0420648311
 10
-115.3857767661
 20
211.6355416667
 10
-118.6994520805
 20
212.3476639846
 10
-121.9044083789
 20
213.1748840275
 10
-124.9846787304
 20
214.1130806265
 10
-127.924917383
 20
215.1575797335
 10
-130.7104762156
 20
216.3031777064
 10
-133.3274777142
 20
217.5441672338
 10
-135.762884109
 20
218.8743657683
 10
-138.0045623278
 20
220.2871463276
 10
-140.0413444426
 20
221.7754705102
 10
-141.8630833072
 20
223.3319235597
 10
-143.4607031103
 20
224.9487513054
 10
-144.8262445904
 20
226.6178987927
 10
-145.9529046886
 20
228.3310504129
 10
-146.8350704408
 20
230.0796713308
 10
-147.4683469417
 20
231.8550500049
 10
-147.8495792396
 20
233.6483415879
 10
-147.9768680544
 20
235.4506119915
  0
LINE
  5
93
330
1F
100
AcDbEntity
  8
0
  6
Continuous
 62
     7
370
    25
100
AcDbLine
 10
-159.3768680544
 20
-25.5493880085
 30
0.0
 11
-34.3768680544
 21
-25.5493880085
 31
0.0
  0
LINE
  5
94
330
1F
100
AcDbEntity
  8
0
  6
Continuous
 62
     7
370
    25
100
AcDbLine
 10
311.788873362
 20
235.4506119915
 30
0.0
 11
311.788873362
 21
114.3200904405
 31
0.0
  0
LINE
  5
95
330
1F
100
AcDbEntity
  8
0
  6
Continuous
 62
     7
370
    25
100
AcDbLine
 10
436.788873362
 20
114.3200904405
 30
0.0
 11
436.788873362
 21
235.4506119915
 31
0.0
  0
LINE
  5
96
330
1F
100
AcDbEntity
  8
0
  6
Continuous
 62
     7
370
    25
100
AcDbLine
 10
311.788873362
 20
114.3200904405
 30
0.0
 11
311.788873362
 21
-25.5493880085
 31
0.0
  0
LINE
  5
97
330
1F
100
AcDbEntity
  8
0
  6
Continuous
 62
     7
370
    25
100
AcDbLine
 10
436.788873362
 20
-25.5493880085
 30
0.0
 11
436.788873362
 21
114.3200904405
 31
0.0
  0
LWPOLYLINE
  5
98
330
1F
100
AcDbEntity
  8
0
  6
Continuous
 62
     7
370
    25
100
AcDbPolyline
 90
       52
 70
   128
 43
0.0
 10
311.788873362
 20
235.4506119915
 10
311.8203394631
 20
236.4421099133
 10
312.0718782012
 20
238.4211133447
 10
312.5739428198
 20
240.3881556156
 10
313.3245116817
 20
242.335316141
 10
314.3205625111
 20
244.2547543928
 10
315.5580845629
 20
246.1387414704
 10
317.0320947725
 20
247.9796912229
 10
318.7366578211
 20
249.7701907954
 10
320.6649100348
 20
251.5030304781
 10
322.8090870227
 20
253.1712327372
 10
325.1605549406
 20
254.7680803109
 10
327.7098452573
 20
256.2871432576
 10
330.4466928804
 20
257.722304847
 10
333.3600774904
 20
259.06778619
 10
336.4382679159
 20
260.318169508
 10
339.6688693704
 20
261.4684199488
 10
343.038873362
 20
262.5139058597
 10
346.5347100742
 20
263.4504174381
 10
350.1423030062
 20
264.2741836822
 10
353.8471256547
 20
264.9818875763
 10
357.6342600064
 20
265.5706794465
 10
361.488456608
 20
266.0381884357
 10
365.3941959699
 20
266.3825320502
 10
369.3357510585
 20
266.60232374
 10
373.2972506224
 20
266.6966784813
 10
377.262743101
 20
266.6652163409
 10
381.2162608558
 20
266.5080640059
 10
385.1418844662
 20
266.2258542731
 10
389.0238068314
 20
265.8197235016
 10
392.84639682
 20
265.2913070366
 10
396.5942622115
 20
264.6427326247
 10
400.2523116746
 20
263.8766118463
 10
403.8058155353
 20
262.9960295992
 10
407.2404650877
 20
262.0045316774
 10
410.5424302102
 20
260.906110493
 10
413.6984150548
 20
259.7051890006
 10
416.6957115843
 20
258.406602887
 10
419.5222507436
 20
257.0155811003
 10
422.166651057
 20
255.5377247942
 10
424.6182644577
 20
253.9789847744
 10
426.867219164
 20
252.3456375369
 10
428.9044594289
 20
250.6442599946
 10
430.7217820049
 20
248.8817029942
 10
432.3118691755
 20
247.0650637308
 10
433.6683182208
 20
245.2016571695
 10
434.7856671993
 20
243.2989865909
 10
435.6594169409
 20
241.3647133777
 10
436.286049164
 20
239.4066261656
 10
436.6630406415
 20
237.4326094807
 10
436.788873362
 20
235.4506119915
 10
436.788873362
 20
235.4506119915
  0
ELLIPSE
  5
99
330
1F
100
AcDbEntity
  8
0
  6
Continuous
 62
     7
370
    25
100
AcDbEllipse
 10
374.288873362
 20
114.3200904405
 30
0.0
 11
62.50000000000006
 21
0.0
 31
0.0
210
0.0
220
0.0
230
1.0
 40
0.2679491924
 41
1.570796326794897
 42
3.141592653589849
  0
ELLIPSE
  5
9A
330
1F
100
AcDbEntity
  8
0
  6
Continuous
 62
     7
370
    25
100
AcDbEllipse
 10
374.288873362
 20
114.3200904405
 30
0.0
 11
62.50000000000006
 21
0.0
 31
0.0
210
0.0
220
0.0
230
1.0
 40
0.2679491924
 41
0.0
 42
1.570796326794921
  0
LINE
  5
9B
330
1F
100
AcDbEntity
  8
0
  6
Continuous
 62
     7
370
    25
100
AcDbLine
 10
311.788873362
 20
-25.5493880085
 30
0.0
 11
436.788873362
 21
-25.5493880085
 31
0.0
  0
LINE
  5
9C
330
1F
100
AcDbEntity
  8
0
  6
Continuous
 62
     7
370
    25
100
AcDbLine
 10
191.9473183235
 20
461.618439289
 30
0.0
 11
122.012579099
 21
461.618439289
 31
0.0
  0
LINE
  5
9D
330
1F
100
AcDbEntity
  8
0
  6
Continuous
 62
     7
370
    25
100
AcDbLine
 10
122.012579099
 20
336.618439289
 30
0.0
 11
191.9473183235
 21
336.618439289
 31
0.0
  0
CIRCLE
  5
9E
330
1F
100
AcDbEntity
  8
0
  6
Continuous
 62
     7
370
    25
100
AcDbCircle
 10
122.012579099
 20
399.118439289
 30
0.0
 40
62.5
  0
CIRCLE
  5
9F
330
1F
100
AcDbEntity
  8
0
  6
Continuous
 62
     7
370
    25
100
AcDbCircle
 10
122.012579099
 20
399.118439289
 30
0.0
 40
51.10000000000008
  0
LWPOLYLINE
  5
A0
330
1F
100
AcDbEntity
  8
0
  6
Continuous
 62
     7
370
    25
100
AcDbPolyline
 90
       51
 70
   128
 43
0.0
 10
191.9473183235
 20
461.618439289
 10
195.3802386754
 20
461.4926065685
 10
198.7993358686
 20
461.1156150909
 10
202.1908424056
 20
460.4889828679
 10
205.5411018865
 20
459.6152331263
 10
208.8366239988
 20
458.4978841478
 10
212.0641388382
 20
457.1414351025
 10
215.2106503414
 20
455.5513479319
 10
218.2634886172
 20
453.7340253558
 10
221.2103609634
 20
451.6967850909
 10
224.0394013651
 20
449.4478303847
 10
226.7392182751
 20
446.9962169839
 10
229.2989404836
 20
444.3518166706
 10
231.7082608927
 20
441.5252775113
 10
233.9574780194
 20
438.5279809818
 10
236.0375350602
 20
435.3719961372
 10
237.9400563596
 20
432.0700310146
 10
239.6573811358
 20
428.6353814623
 10
241.182594328
 20
425.0818776016
 10
242.509554441
 20
421.4238281385
 10
243.6329182748
 20
417.675962747
 10
244.5481624397
 20
413.8533727583
 10
245.2516015705
 20
409.9714503932
 10
245.7404031661
 20
406.0458267828
 10
246.0125989949
 20
402.092309028
 10
246.0670930205
 20
398.1268165493
 10
245.9036658146
 20
394.1653169854
 10
245.522975441
 20
390.2237618969
 10
244.9265548053
 20
386.3180225349
 10
244.1168054829
 20
382.4638259334
 10
243.0969880487
 20
378.6766915816
 10
241.8712089475
 20
374.9718689332
 10
240.444403959
 20
371.3642760011
 10
238.8223183235
 20
367.868439289
 10
237.0114836072
 20
364.4984352974
 10
235.0191914024
 20
361.2678338429
 10
232.8534639666
 20
358.1896434174
 10
230.5230219199
 20
355.2762588073
 10
228.0372491299
 20
352.5394111843
 10
225.4061549263
 20
349.9901208676
 10
222.6403337967
 20
347.6386529496
 10
219.7509227268
 20
345.4944759618
 10
216.749556355
 20
343.5662237481
 10
213.6483201244
 20
341.8616606995
 10
210.4597016189
 20
340.3876504899
 10
207.1965402796
 20
339.1501284381
 10
203.8719757056
 20
338.1540776086
 10
200.4993947451
 20
337.4035087467
 10
197.0923775913
 20
336.9014441282
 10
193.6646430997
 20
336.64990539
 10
191.9473183235
 20
336.618439289
  0
ARC
  5
A1
330
1F
100
AcDbEntity
  8
0
  6
Continuous
 62
     7
370
    25
100
AcDbCircle
 10
204.2967896932
 20
399.118439289
 30
0.0
 40
56.69409325703295
100
AcDbArc
 50
142.2151308242
 51
217.7848691758
  0
INSERT
  5
AD
330
1F
100
AcDbEntity
  8
FORMAT
 62
     7
100
AcDbBlockReference
  2
SW_CENTERMARKSYMBOL_0
 10
122.012579099
 20
399.118439289
 30
0.0
  0
LINE
  5
AE
330
1F
100
AcDbEntity
  8
0
  6
Continuous
 62
     7
370
    25
100
AcDbLine
 10
191.9473183235
 20
-174.1266667612
 30
0.0
 11
122.012579099
 21
-174.1266667612
 31
0.0
  0
LINE
  5
AF
330
1F
100
AcDbEntity
  8
0
  6
Continuous
 62
     7
370
    25
100
AcDbLine
 10
122.012579099
 20
-299.1266667612
 30
0.0
 11
191.9473183235
 21
-299.1266667612
 31
0.0
  0
LWPOLYLINE
  5
B0
330
1F
100
AcDbEntity
  8
0
  6
Continuous
 62
     7
370
    25
100
AcDbPolyline
 90
      100
 70
   128
 43
0.0
 10
191.9473183235
 20
-299.1266667612
 10
195.3802386754
 20
-299.0008340407
 10
198.7993358686
 20
-298.6238425631
 10
202.1908424056
 20
-297.9972103401
 10
205.5411018865
 20
-297.1234605985
 10
208.8366239988
 20
-296.00611162
 10
212.0641388382
 20
-294.6496625747
 10
215.2106503414
 20
-293.0595754041
 10
218.2634886172
 20
-291.2422528281
 10
221.2103609634
 20
-289.2050125632
 10
224.0394013651
 20
-286.9560578569
 10
226.7392182751
 20
-284.5044444561
 10
229.2989404836
 20
-281.8600441428
 10
231.7082608927
 20
-279.0335049835
 10
233.9574780194
 20
-276.036208454
 10
236.0375350602
 20
-272.8802236094
 10
237.9400563596
 20
-269.5782584869
 10
239.6573811358
 20
-266.1436089345
 10
241.182594328
 20
-262.5901050738
 10
242.509554441
 20
-258.9320556107
 10
243.6329182748
 20
-255.1841902192
 10
244.5481624397
 20
-251.3616002305
 10
245.2516015705
 20
-247.4796778654
 10
245.7404031661
 20
-243.554054255
 10
246.0125989949
 20
-239.6005365002
 10
246.0670930205
 20
-235.6350440215
 10
245.9036658146
 20
-231.6735444577
 10
245.522975441
 20
-227.7319893691
 10
244.9265548053
 20
-223.8262500071
 10
244.1168054829
 20
-219.9720534056
 10
243.0969880487
 20
-216.1849190539
 10
241.8712089475
 20
-212.4800964054
 10
240.444403959
 20
-208.8725034733
 10
238.8223183235
 20
-205.3766667612
 10
237.0114836072
 20
-202.0066627696
 10
235.0191914024
 20
-198.7760613151
 10
232.8534639666
 20
-195.6978708896
 10
230.5230219199
 20
-192.7844862796
 10
228.0372491299
 20
-190.0476386565
 10
225.4061549263
 20
-187.4983483398
 10
222.6403337967
 20
-185.1468804218
 10
219.7509227268
 20
-183.002703434
 10
216.749556355
 20
-181.0744512203
 10
213.6483201244
 20
-179.3698881717
 10
210.4597016189
 20
-177.8958779621
 10
207.1965402796
 20
-176.6583559103
 10
203.8719757056
 20
-175.6623050809
 10
200.4993947451
 20
-174.9117362189
 10
197.0923775913
 20
-174.4096716004
 10
193.6646430997
 20
-174.1581328623
 10
190.2299935473
 20
-174.1581328623
 10
186.8022590557
 20
-174.4096716004
 10
183.3952419018
 20
-174.9117362189
 10
180.0226609413
 20
-175.6623050809
 10
176.6980963674
 20
-176.6583559103
 10
173.4349350281
 20
-177.8958779621
 10
170.2463165225
 20
-179.3698881717
 10
167.145080292
 20
-181.0744512203
 10
164.1437139202
 20
-183.002703434
 10
161.2543028503
 20
-185.1468804218
 10
158.4884817207
 20
-187.4983483398
 10
155.857387517
 20
-190.0476386565
 10
153.371614727
 20
-192.7844862796
 10
151.0411726804
 20
-195.6978708896
 10
148.8754452446
 20
-198.7760613151
 10
146.8831530398
 20
-202.0066627696
 10
145.0723183235
 20
-205.3766667612
 10
143.4502326879
 20
-208.8725034734
 10
142.0234276995
 20
-212.4800964054
 10
140.7976485982
 20
-216.1849190539
 10
139.777831164
 20
-219.9720534056
 10
138.9680818417
 20
-223.8262500071
 10
138.371661206
 20
-227.7319893691
 10
137.9909708323
 20
-231.6735444577
 10
137.8275436265
 20
-235.6350440215
 10
137.882037652
 20
-239.6005365002
 10
138.1542334809
 20
-243.554054255
 10
138.6430350765
 20
-247.4796778654
 10
139.3464742072
 20
-251.3616002306
 10
140.2617183722
 20
-255.1841902192
 10
141.385082206
 20
-258.9320556107
 10
142.712042319
 20
-262.5901050738
 10
144.2372555112
 20
-266.1436089345
 10
145.9545802874
 20
-269.5782584869
 10
147.8571015868
 20
-272.8802236094
 10
149.9371586276
 20
-276.036208454
 10
152.1863757543
 20
-279.0335049835
 10
154.5956961634
 20
-281.8600441428
 10
157.1554183718
 20
-284.5044444561
 10
159.8552352818
 20
-286.9560578569
 10
162.6842756835
 20
-289.2050125632
 10
165.6311480297
 20
-291.2422528281
 10
168.6839863056
 20
-293.0595754041
 10
171.8304978088
 20
-294.6496625747
 10
175.0580126482
 20
-296.00611162
 10
178.3535347605
 20
-297.1234605985
 10
181.7037942414
 20
-297.9972103401
 10
185.0953007783
 20
-298.6238425631
 10
188.5143979716
 20
-299.0008340407
 10
191.9473183235
 20
-299.1266667612
  0
ARC
  5
B1
330
1F
100
AcDbEntity
  8
0
  6
Continuous
 62
     7
370
    25
100
AcDbCircle
 10
122.012579099
 20
-236.6266667612
 30
0.0
 40
62.50000000000003
100
AcDbArc
 50
90.0
 51
180.0
  0
ARC
  5
B2
330
1F
100
AcDbEntity
  8
0
  6
Continuous
 62
     7
370
    25
100
AcDbCircle
 10
122.012579099
 20
-236.6266667612
 30
0.0
 40
62.5
100
AcDbArc
 50
180.0
 51
270.0
  0
LWPOLYLINE
  5
B3
330
1F
100
AcDbEntity
  8
0
  6
Continuous
 62
     7
370
    25
100
AcDbPolyline
 90
       90
 70
   128
 43
0.0
 10
191.9473183235
 20
-287.7266667612
 10
188.8256944156
 20
-287.5993779464
 10
185.719622281
 20
-287.2181456485
 10
182.6445762148
 20
-286.5848691476
 10
179.6158759419
 20
-285.7027033954
 10
176.6486102946
 20
-284.5760432972
 10
173.7575620411
 20
-283.2105018171
 10
170.9571342385
 20
-281.612882014
 10
168.2612784772
 20
-279.7911431494
 10
165.6834253749
 20
-277.7543610346
 10
163.2364176662
 20
-275.5126828158
 10
160.9324462204
 20
-273.077276421
 10
158.7829893073
 20
-270.4602749224
 10
156.7987554131
 20
-267.6747160898
 10
154.9896298913
 20
-264.7344774372
 10
153.3646257143
 20
-261.6542070857
 10
151.931838571
 20
-258.4492507873
 10
150.6984065351
 20
-255.1355754729
 10
149.6704745028
 20
-251.7296897064
 10
148.8531635798
 20
-248.2485614392
 10
148.2505455681
 20
-244.7095334774
 10
147.8656226802
 20
-241.1302370801
 10
147.7003125826
 20
-237.5285041221
 10
147.755438842
 20
-233.9222782557
 10
148.030726822
 20
-230.3295255168
 10
148.5248050518
 20
-226.7681448188
 10
149.2352120585
 20
-223.2558787812
 10
150.1584086301
 20
-219.8102253368
 10
151.2897954477
 20
-216.4483505577
 10
152.6237359992
 20
-213.1870031349
 10
154.1535846598
 20
-210.0424309372
 10
155.8717198005
 20
-207.0303000652
 10
157.7695817583
 20
-204.1656168033
 10
159.8377154805
 20
-201.4626528594
 10
162.0658176288
 20
-198.9348742641
 10
164.4427879106
 20
-196.5948742829
 10
166.9567843794
 20
-194.4543106783
 10
169.5952824312
 20
-192.5238476303
 10
172.3451372015
 20
-190.8131026088
 10
175.1926490521
 20
-189.3305984594
 10
178.1236318222
 20
-188.0837209432
 10
181.1234835031
 20
-187.0786819413
 10
184.1772589847
 20
-186.3204885075
 10
187.269744511
 20
-185.8129179232
 10
190.3855334748
 20
-185.5584988796
 10
193.5091031722
 20
-185.5584988796
 10
196.6248921359
 20
-185.8129179232
 10
199.7173776623
 20
-186.3204885075
 10
202.7711531438
 20
-187.0786819413
 10
205.7710048248
 20
-188.0837209432
 10
208.7019875949
 20
-189.3305984594
 10
211.5494994455
 20
-190.8131026088
 10
214.2993542158
 20
-192.5238476303
 10
216.9378522676
 20
-194.4543106783
 10
219.4518487364
 20
-196.5948742829
 10
221.8288190181
 20
-198.9348742641
 10
224.0569211665
 20
-201.4626528594
 10
226.1250548887
 20
-204.1656168033
 10
228.0229168465
 20
-207.0303000652
 10
229.7410519871
 20
-210.0424309372
 10
231.2709006477
 20
-213.1870031349
 10
232.6048411992
 20
-216.4483505577
 10
233.7362280169
 20
-219.8102253368
 10
234.6594245885
 20
-223.2558787812
 10
235.3698315952
 20
-226.7681448188
 10
235.863909825
 20
-230.3295255168
 10
236.139197805
 20
-233.9222782557
 10
236.1943240643
 20
-237.5285041221
 10
236.0290139668
 20
-241.1302370801
 10
235.6440910789
 20
-244.7095334774
 10
235.0414730671
 20
-248.2485614392
 10
234.2241621442
 20
-251.7296897064
 10
233.1962301119
 20
-255.1355754729
 10
231.9627980759
 20
-258.4492507873
 10
230.5300109327
 20
-261.6542070857
 10
228.9050067557
 20
-264.7344774372
 10
227.0958812339
 20
-267.6747160898
 10
225.1116473397
 20
-270.4602749224
 10
222.9621904266
 20
-273.077276421
 10
220.6582189808
 20
-275.5126828158
 10
218.211211272
 20
-277.7543610346
 10
215.6333581698
 20
-279.7911431494
 10
212.9375024084
 20
-281.612882014
 10
210.1370746058
 20
-283.2105018171
 10
207.2460263524
 20
-284.5760432972
 10
204.2787607051
 20
-285.7027033954
 10
201.2500604322
 20
-286.5848691476
 10
198.175014366
 20
-287.2181456485
 10
195.0689422314
 20
-287.5993779464
 10
191.9473183235
 20
-287.7266667612
  0
ARC
  5
B4
330
1F
100
AcDbEntity
  8
0
  6
Continuous
 62
     7
370
    25
100
AcDbCircle
 10
122.012579099
 20
-236.6266667612
 30
0.0
 40
51.10000000000001
100
AcDbArc
 50
317.1741266226
 51
42.8258733774
  0
LINE
  5
B5
330
1F
100
AcDbEntity
  8
0
  6
Continuous
 62
     7
370
    25
100
AcDbLine
 10
307.1621481143
 20
-223.230031303
 30
0.0
 11
307.1621481143
 21
-347.1084762163
 31
0.0
  0
LINE
  5
B6
330
1F
100
AcDbEntity
  8
0
  6
Continuous
 62
     7
370
    25
100
AcDbLine
 10
432.1621481143
 20
-347.1084762163
 30
0.0
 11
432.1621481143
 21
-242.5686461481
 31
0.0
  0
LINE
  5
B7
330
1F
100
AcDbEntity
  8
0
  6
Continuous
 62
     7
370
    25
100
AcDbLine
 10
360.8454797161
 20
-82.836368124
 30
0.0
 11
307.8965985759
 21
-219.3066055106
 31
0.0
  0
LINE
  5
B8
330
1F
100
AcDbEntity
  8
0
  6
Continuous
 62
     7
370
    25
100
AcDbLine
 10
432.1621481143
 20
-244.5991022178
 30
0.0
 11
477.3814732049
 21
-128.0509921032
 31
0.0
  0
LWPOLYLINE
  5
B9
330
1F
100
AcDbEntity
  8
0
  6
Continuous
 62
     7
370
    25
100
AcDbPolyline
 90
      100
 70
   128
 43
0.0
 10
325.4679742902
 20
-321.5957227219
 10
328.35991919
 20
-320.0289693209
 10
331.4181735884
 20
-318.5712555367
 10
334.6304229743
 20
-317.2284510681
 10
337.983732753
 20
-316.0059629148
 10
341.4646003297
 20
-314.9087136051
 10
345.0590094792
 20
-313.9411213747
 10
348.7524867844
 20
-313.1070823761
 10
352.5301599159
 20
-312.4099549899
 10
356.3768175173
 20
-311.8525463021
 10
360.2769704559
 20
-311.4371008006
 10
364.2149141926
 20
-311.165291338
 10
368.1747920177
 20
-311.038212395
 10
372.1406589008
 20
-311.0563756736
 10
376.0965456958
 20
-311.2197080367
 10
380.0265234427
 20
-311.5275518025
 10
383.9147675082
 20
-311.9786673929
 10
387.7456213058
 20
-312.5712383246
 10
391.5036593393
 20
-313.3028785236
 10
395.1737493159
 20
-314.170641933
 10
398.7411130786
 20
-315.1710343758
 10
402.1913861126
 20
-316.3000276249
 10
405.5106753863
 20
-317.5530756227
 10
408.6856152931
 20
-318.9251327874
 10
411.7034214707
 20
-320.4106743289
 10
414.5519422786
 20
-322.0037184958
 10
417.2197077291
 20
-323.6978506614
 10
419.6959756721
 20
-325.4862491536
 10
421.9707750507
 20
-327.3617127227
 10
424.0349460506
 20
-329.3166895388
 10
425.8801769837
 20
-331.3433076005
 10
427.4990377564
 20
-333.4334064319
 10
428.8850097877
 20
-335.5785699428
 10
430.0325122574
 20
-337.7701603169
 10
430.936924578
 20
-339.9993527932
 10
431.5946050003
 20
-342.2571712004
 10
432.0029052775
 20
-344.5345241006
 10
432.1601813283
 20
-346.8222413976
 10
432.0657998576
 20
-349.1111112612
 10
431.7201409064
 20
-351.3919172202
 10
431.1245963212
 20
-353.6554752742
 10
430.2815641498
 20
-355.8926708737
 10
429.1944389853
 20
-358.0944956216
 10
427.867598297
 20
-360.2520835468
 10
426.3063848041
 20
-362.3567468042
 10
424.5170849623
 20
-364.4000106578
 10
422.5069036505
 20
-366.3736476051
 10
420.2839351593
 20
-368.2697105067
 10
417.8571305984
 20
-370.0805645866
 10
415.2362618531
 20
-371.7989181745
 10
412.431882237
 20
-373.417852067
 10
409.4552839968
 20
-374.9308473886
 10
406.3184528431
 20
-376.3318118412
 10
403.0340196879
 20
-377.6151042355
 10
399.6152097843
 20
-378.7755572059
 10
396.0757894731
 20
-379.8084980178
 10
392.4300107507
 20
-380.7097673832
 10
388.6925538812
 20
-381.4757362085
 10
384.8784682843
 20
-382.1033202074
 10
381.0031119367
 20
-382.5899923209
 10
377.0820895304
 20
-382.9337928919
 10
373.1311896389
 20
-383.133337557
 10
369.1663211415
 20
-383.1878228203
 10
365.2034491644
 20
-383.0970292887
 10
361.2585307942
 20
-382.8613225559
 10
357.347450825
 20
-382.4816517296
 10
353.4859577954
 20
-381.9595456103
 10
349.6896005749
 20
-381.2971065349
 10
345.9736657542
 20
-380.497001912
 10
342.3531160912
 20
-379.5624534803
 10
338.8425302617
 20
-378.4972243367
 10
335.4560441556
 20
-377.3056037828
 10
332.2072939574
 20
-375.992390054
 10
329.1093612373
 20
-374.5628709987
 10
326.1747202772
 20
-373.0228027854
 10
323.4151878404
 20
-371.3783867254
 10
320.84187559
 20
-369.6362443016
 10
318.4651453463
 20
-367.8033905068
 10
316.294567363
 20
-365.8872055963
 10
314.3388817917
 20
-363.8954053704
 10
312.6059634878
 20
-361.8360101056
 10
311.1027903018
 20
-359.7173122599
 10
309.8354149816
 20
-357.5478430816
 10
308.8089408002
 20
-355.3363382575
 10
308.0275010069
 20
-353.0917027369
 10
307.494242184
 20
-350.8229748748
 10
307.2113115764
 20
-348.5392900377
 10
307.179848446
 20
-346.2498438183
 10
307.3999794836
 20
-343.9638550085
 10
307.8708182992
 20
-341.6905284784
 10
308.5904689911
 20
-339.4390181117
 10
309.55603378
 20
-337.2183899458
 10
310.7636246772
 20
-335.0375856667
 10
312.2083791405
 20
-332.9053866035
 10
313.8844796534
 20
-330.8303783693
 10
315.7851771509
 20
-328.8209162899
 10
317.9028181949
 20
-326.8850917598
 10
320.2288757923
 20
-325.0306996612
 10
322.7539837302
 20
-323.2652069766
 10
325.4679742902
 20
-321.5957227219
  0
LWPOLYLINE
  5
BA
330
1F
100
AcDbEntity
  8
0
  6
Continuous
 62
     7
370
    25
100
AcDbPolyline
 90
       90
 70
   128
 43
0.0
 10
333.5289915957
 20
-326.2492489593
 10
331.0702031321
 20
-327.7725969469
 10
328.8036777971
 20
-329.3922753124
 10
326.740707306
 20
-331.1002148997
 10
324.891569274
 20
-332.8879068396
 10
323.2654760138
 20
-334.7464449408
 10
321.8705286402
 20
-336.66657006
 10
320.7136767107
 20
-338.6387162304
 10
319.8006836037
 20
-340.653058319
 10
319.1360978047
 20
-342.6995609749
 10
318.7232302468
 20
-344.7680286248
 10
318.5641378154
 20
-346.8481562668
 10
318.659613101
 20
-348.9295808097
 10
319.0091804506
 20
-351.0019327011
 10
319.6110983371
 20
-353.0548875882
 10
320.462368036
 20
-355.0782177529
 10
321.5587485644
 20
-357.0618430662
 10
322.8947778097
 20
-358.9958812065
 10
324.4637997414
 20
-360.8706968931
 10
326.2579975711
 20
-362.6769498886
 10
328.2684326956
 20
-364.4056415313
 10
330.485089228
 20
-366.0481595665
 10
332.8969238972
 20
-367.596321052
 10
335.4919210641
 20
-369.042413125
 10
338.2571525834
 20
-370.3792314277
 10
341.1788422106
 20
-371.6001159985
 10
344.2424342352
 20
-372.6989844518
 10
347.4326659956
 20
-373.6703622804
 10
350.7336439177
 20
-374.5094101287
 10
354.1289226957
 20
-375.2119479025
 10
357.6015872213
 20
-375.7744755941
 10
361.1343368546
 20
-376.1941907187
 10
364.7095716147
 20
-376.4690022767
 10
368.3094798617
 20
-376.5975411707
 10
371.916127034
 20
-376.5791670265
 10
375.5115449966
 20
-376.4139713831
 10
379.0778215582
 20
-376.1027772369
 10
382.5971897084
 20
-375.6471349415
 10
386.0521161319
 20
-375.0493144838
 10
389.4253885593
 20
-374.3122941754
 10
392.7002015169
 20
-373.4397458142
 10
395.8602400512
 20
-372.4360163925
 10
398.8897610094
 20
-371.3061064396
 10
401.7736714703
 20
-370.0556451101
 10
404.4976039371
 20
-368.6908621394
 10
407.0479879152
 20
-367.2185568077
 10
409.4121175201
 20
-365.6460640661
 10
411.5782147768
 20
-363.9812179943
 10
413.5354882979
 20
-362.2323127716
 10
415.2741870451
 20
-360.408061356
 10
416.7856489087
 20
-358.5175520762
 10
418.0623438617
 20
-356.5702033544
 10
419.0979114741
 20
-354.5757167839
 10
419.8871926001
 20
-352.5440287965
 10
420.4262550809
 20
-350.4852611596
 10
420.7124133343
 20
-348.4096705499
 10
420.7442417343
 20
-346.3275974556
 10
420.5215817134
 20
-344.2494146599
 10
420.0455425526
 20
-342.1854755651
 10
419.318495855
 20
-340.1460626119
 10
418.3440637308
 20
-338.1413360531
 10
417.1271007518
 20
-336.1812833355
 10
415.6736697663
 20
-334.2756693432
 10
413.9910116944
 20
-332.4339877492
 10
412.0875094539
 20
-330.6654137186
 10
409.9726461973
 20
-328.9787581982
 10
407.656958067
 20
-327.3824240211
 10
405.1519817046
 20
-325.8843640437
 10
402.4701967765
 20
-324.4920415256
 10
399.6249638003
 20
-323.2123929475
 10
396.6304575834
 20
-322.0517934542
 10
393.5015966054
 20
-321.0160250941
 10
390.2539686941
 20
-320.1102480129
 10
386.9037533685
 20
-319.3389747466
 10
383.4676412328
 20
-318.7060477398
 10
379.9627508249
 20
-318.214620203
 10
376.4065433323
 20
-317.8671404034
 10
372.8167356021
 20
-317.665339468
 10
369.2112118756
 20
-317.6102227588
 10
365.6079346908
 20
-317.7020648645
 10
362.0248553934
 20
-317.9404082324
 10
358.4798247041
 20
-318.3240654477
 10
354.9905037876
 20
-318.8511251497
 10
351.574276265
 20
-319.5189615532
 10
348.2481616102
 20
-320.324247531
 10
345.0287303591
 20
-321.2629711889
 10
341.932021556
 20
-322.3304558527
 10
338.9734628486
 20
-323.5213833676
 10
336.1677936275
 20
-324.8298205926
 10
333.5289915957
 20
-326.2492489593
  0
ELLIPSE
  5
BB
330
1F
100
AcDbEntity
  8
0
  6
Continuous
 62
     7
370
    25
100
AcDbEllipse
 10
369.6621481143
 20
-232.8993387255
 30
0.0
 11
62.31611688058621
 21
-11.66534126820147
 31
0.0
210
0.0
220
0.0
230
1.0
 40
0.4106849769
 41
0.076727748978416
 42
3.218320402568241
  0
LWPOLYLINE
  5
BC
330
1F
100
AcDbEntity
  8
0
  6
Continuous
 62
     7
370
    25
100
AcDbPolyline
 90
       41
 70
   128
 43
0.0
 10
374.9193026363
 20
-79.9309266191
 10
377.4357210664
 20
-80.1993418738
 10
380.1199611075
 20
-80.5694071687
 10
382.9612142725
 20
-81.0396323816
 10
385.9480398375
 20
-81.6081240814
 10
389.0684109103
 20
-82.2725931527
 10
392.3097628578
 20
-83.0303640132
 10
395.6590438999
 20
-83.8783853869
 10
399.1027676637
 20
-84.8132425912
 10
402.6270674892
 20
-85.8311712859
 10
406.2177522649
 20
-86.9280726317
 10
409.8603635704
 20
-88.0995297937
 10
413.5402338958
 20
-89.3408257277
 10
417.2425457018
 20
-90.6469621728
 10
420.9523910858
 20
-92.0126797786
 10
424.6548318095
 20
-93.4324792825
 10
428.3349594511
 20
-94.9006436527
 10
431.9779554353
 20
-96.4112611098
 10
435.5691507031
 20
-97.9582489302
 10
439.0940847787
 20
-99.53537794
 10
442.5385639966
 20
-101.1362975974
 10
445.8887186547
 20
-102.7545615639
 10
449.1310588627
 20
-104.3836536618
 10
452.2525288609
 20
-106.017014112
 10
455.2405595912
 20
-107.6480659485
 10
458.0831193087
 20
-109.2702415014
 10
460.7687620284
 20
-110.877008842
 10
463.2866736152
 20
-112.4618980856
 10
465.6267153277
 20
-114.0185274424
 10
467.7794646438
 20
-115.5406289155
 10
469.7362532018
 20
-117.0220735393
 10
471.489201705
 20
-118.4568960594
 10
473.0312516482
 20
-119.8393189518
 10
474.3561937407
 20
-121.1637756875
 10
475.4586929083
 20
-122.4249331466
 10
476.3343097759
 20
-123.6177130931
 10
476.9795185436
 20
-124.7373126233
 10
477.3917211832
 20
-125.7792235049
 10
477.5692579002
 20
-126.7392503306
 10
477.511413817
 20
-127.6135274111
 10
477.3814732049
 20
-128.0509921032
  0
LWPOLYLINE
  5
BD
330
1F
100
AcDbEntity
  8
0
  6
Continuous
 62
     7
370
    25
100
AcDbPolyline
 90
       11
 70
   128
 43
0.0
 10
360.8454797161
 20
-82.836368124
 10
361.2428757115
 20
-82.1308009223
 10
361.8860827246
 20
-81.4855101391
 10
362.7597242542
 20
-80.9366904505
 10
363.8602824542
 20
-80.4865517597
 10
365.1833257652
 20
-80.1369066162
 10
366.7235267587
 20
-79.8891629178
 10
368.474683589
 20
-79.7443182408
 10
370.4297449656
 20
-79.7029558237
 10
372.5808385462
 20
-79.7652422182
 10
374.9193026363
 20
-79.9309266191
  0
ENDSEC
  0
SECTION
  2
OBJECTS
  0
DICTIONARY
  5
C
330
0
100
AcDbDictionary
281
     1
  3
ACAD_GROUP
350
D
  3
ACAD_LAYOUT
350
1A
  3
ACAD_MLINESTYLE
350
17
  3
ACAD_PLOTSETTINGS
350
19
  3
ACAD_PLOTSTYLENAME
350
E
  3
ACAD_SCALELIST
350
47
  3
DWGPROPS
350
BE
  0
DICTIONARY
  5
D
102
{ACAD_REACTORS
330
C
102
}
330
C
100
AcDbDictionary
281
     1
  0
DICTIONARY
  5
1A
102
{ACAD_REACTORS
330
C
102
}
330
C
100
AcDbDictionary
281
     1
  3
Layout1
350
1E
  3
Layout2
350
26
  3
Model
350
22
  0
DICTIONARY
  5
17
102
{ACAD_REACTORS
330
C
102
}
330
C
100
AcDbDictionary
281
     1
  3
Standard
350
18
  0
DICTIONARY
  5
19
102
{ACAD_REACTORS
330
C
102
}
330
C
100
AcDbDictionary
281
     1
  0
ACDBDICTIONARYWDFLT
  5
E
102
{ACAD_REACTORS
330
C
102
}
330
C
100
AcDbDictionary
281
     1
  3
Normal
350
F
100
AcDbDictionaryWithDefault
340
F
  0
DICTIONARY
  5
47
102
{ACAD_REACTORS
330
C
102
}
330
C
100
AcDbDictionary
281
     1
  3
A0
350
48
  3
A1
350
49
  3
A2
350
4A
  3
A3
350
4B
  3
A4
350
4C
  3
A5
350
4D
  3
A6
350
4E
  3
A7
350
4F
  3
A8
350
50
  3
A9
350
51
  3
B0
350
52
  3
B1
350
53
  3
B2
350
54
  3
B3
350
55
  3
B4
350
56
  3
B5
350
57
  3
B6
350
58
  3
B7
350
59
  3
B8
350
5A
  3
B9
350
5B
  3
C0
350
5C
  3
C1
350
5D
  3
C2
350
5E
  3
C3
350
5F
  3
C4
350
60
  3
C5
350
61
  3
C6
350
62
  3
C7
350
63
  3
C8
350
64
  3
C9
350
65
  3
D0
350
66
  3
D1
350
67
  3
D2
350
68
  0
XRECORD
  5
BE
102
{ACAD_REACTORS
330
C
102
}
330
C
100
AcDbXrecord
280
     1
  1
DWGPROPS COOKIE
  2

  3

  4

  6

  7

  8
b.kav
  9

300
=
301
=
302
=
303
=
304
=
305
=
306
=
307
=
308
=
309
=
 40
0.0
 41
2460682.394542234
 42
2460682.394542407
  1

 90
        0
  0
LAYOUT
  5
1E
102
{ACAD_REACTORS
330
1A
102
}
330
1A
100
AcDbPlotSettings
  1

  2
none_device
  4

  6

 40
0.0
 41
0.0
 42
0.0
 43
0.0
 44
0.0
 45
0.0
 46
0.0
 47
0.0
 48
0.0
 49
0.0
140
0.0
141
0.0
142
1.0
143
1.0
 70
   688
 72
     1
 73
     0
 74
     5
  7

 75
    16
147
1.0
148
0.0
149
0.0
100
AcDbLayout
  1
Layout1
 70
     1
 71
     1
 10
0.0
 20
0.0
 11
420.0
 21
297.0
 12
0.0
 22
0.0
 32
0.0
 14
1.0000000000E+20
 24
1.0000000000E+20
 34
1.0000000000E+20
 15
-1.0000000000E+20
 25
-1.0000000000E+20
 35
-1.0000000000E+20
146
0.0
 13
0.0
 23
0.0
 33
0.0
 16
1.0
 26
0.0
 36
0.0
 17
0.0
 27
1.0
 37
0.0
 76
     0
330
1B
  0
LAYOUT
  5
26
102
{ACAD_REACTORS
330
1A
102
}
330
1A
100
AcDbPlotSettings
  1

  2
none_device
  4

  6

 40
0.0
 41
0.0
 42
0.0
 43
0.0
 44
0.0
 45
0.0
 46
0.0
 47
0.0
 48
0.0
 49
0.0
140
0.0
141
0.0
142
1.0
143
1.0
 70
   688
 72
     1
 73
     0
 74
     5
  7

 75
    16
147
1.0
148
0.0
149
0.0
100
AcDbLayout
  1
Layout2
 70
     1
 71
     2
 10
0.0
 20
0.0
 11
0.0
 21
0.0
 12
0.0
 22
0.0
 32
0.0
 14
0.0
 24
0.0
 34
0.0
 15
0.0
 25
0.0
 35
0.0
146
0.0
 13
0.0
 23
0.0
 33
0.0
 16
1.0
 26
0.0
 36
0.0
 17
0.0
 27
1.0
 37
0.0
 76
     0
330
23
  0
LAYOUT
  5
22
102
{ACAD_REACTORS
330
1A
102
}
330
1A
100
AcDbPlotSettings
  1

  2
none_device
  4
Letter_(8.50_x_11.00_Inches)
  6

 40
6.35
 41
6.35
 42
6.35000508
 43
6.35000508
 44
215.9
 45
279.4
 46
0.0
 47
0.0
 48
0.0
 49
0.0
140
0.0
141
0.0
142
1.0
143
1.0
 70
  1712
 72
     1
 73
     0
 74
     0
  7

 75
     0
147
1.0
148
0.0
149
0.0
100
AcDbLayout
  1
Model
 70
     1
 71
     0
 10
0.0
 20
0.0
 11
279.4
 21
215.9
 12
0.0
 22
0.0
 32
0.0
 14
0.0
 24
0.0
 34
0.0
 15
279.4
 25
215.9
 35
0.0
146
0.0
 13
0.0
 23
0.0
 33
0.0
 16
1.0
 26
0.0
 36
0.0
 17
0.0
 27
1.0
 37
0.0
 76
     0
330
1F
331
29
  0
MLINESTYLE
  5
18
102
{ACAD_REACTORS
330
17
102
}
330
17
100
AcDbMlineStyle
  2
Standard
 70
     0
  3

 62
   256
 51
90.0
 52
90.0
 71
     2
 49
0.5
 62
   256
  6
BYLAYER
 49
-0.5
 62
   256
  6
BYLAYER
  0
ACDBPLACEHOLDER
  5
F
102
{ACAD_REACTORS
330
E
102
}
330
E
  0
SCALE
  5
48
102
{ACAD_REACTORS
330
47
102
}
330
47
100
AcDbScale
 70
     0
300
1:1
140
1.0
141
1.0
290
     1
  0
SCALE
  5
49
102
{ACAD_REACTORS
330
47
102
}
330
47
100
AcDbScale
 70
     0
300
1:2
140
1.0
141
2.0
290
     0
  0
SCALE
  5
4A
102
{ACAD_REACTORS
330
47
102
}
330
47
100
AcDbScale
 70
     0
300
1:4
140
1.0
141
4.0
290
     0
  0
SCALE
  5
4B
102
{ACAD_REACTORS
330
47
102
}
330
47
100
AcDbScale
 70
     0
300
1:5
140
1.0
141
5.0
290
     0
  0
SCALE
  5
4C
102
{ACAD_REACTORS
330
47
102
}
330
47
100
AcDbScale
 70
     0
300
1:8
140
1.0
141
8.0
290
     0
  0
SCALE
  5
4D
102
{ACAD_REACTORS
330
47
102
}
330
47
100
AcDbScale
 70
     0
300
1:10
140
1.0
141
10.0
290
     0
  0
SCALE
  5
4E
102
{ACAD_REACTORS
330
47
102
}
330
47
100
AcDbScale
 70
     0
300
1:16
140
1.0
141
16.0
290
     0
  0
SCALE
  5
4F
102
{ACAD_REACTORS
330
47
102
}
330
47
100
AcDbScale
 70
     0
300
1:20
140
1.0
141
20.0
290
     0
  0
SCALE
  5
50
102
{ACAD_REACTORS
330
47
102
}
330
47
100
AcDbScale
 70
     0
300
1:30
140
1.0
141
30.0
290
     0
  0
SCALE
  5
51
102
{ACAD_REACTORS
330
47
102
}
330
47
100
AcDbScale
 70
     0
300
1:40
140
1.0
141
40.0
290
     0
  0
SCALE
  5
52
102
{ACAD_REACTORS
330
47
102
}
330
47
100
AcDbScale
 70
     0
300
1:50
140
1.0
141
50.0
290
     0
  0
SCALE
  5
53
102
{ACAD_REACTORS
330
47
102
}
330
47
100
AcDbScale
 70
     0
300
1:100
140
1.0
141
100.0
290
     0
  0
SCALE
  5
54
102
{ACAD_REACTORS
330
47
102
}
330
47
100
AcDbScale
 70
     0
300
2:1
140
2.0
141
1.0
290
     0
  0
SCALE
  5
55
102
{ACAD_REACTORS
330
47
102
}
330
47
100
AcDbScale
 70
     0
300
4:1
140
4.0
141
1.0
290
     0
  0
SCALE
  5
56
102
{ACAD_REACTORS
330
47
102
}
330
47
100
AcDbScale
 70
     0
300
8:1
140
8.0
141
1.0
290
     0
  0
SCALE
  5
57
102
{ACAD_REACTORS
330
47
102
}
330
47
100
AcDbScale
 70
     0
300
10:1
140
10.0
141
1.0
290
     0
  0
SCALE
  5
58
102
{ACAD_REACTORS
330
47
102
}
330
47
100
AcDbScale
 70
     0
300
100:1
140
100.0
141
1.0
290
     0
  0
SCALE
  5
59
102
{ACAD_REACTORS
330
47
102
}
330
47
100
AcDbScale
 70
     0
300
1/128" = 1'-0"
140
0.0078125
141
12.0
290
     0
  0
SCALE
  5
5A
102
{ACAD_REACTORS
330
47
102
}
330
47
100
AcDbScale
 70
     0
300
1/64" = 1'-0"
140
0.015625
141
12.0
290
     0
  0
SCALE
  5
5B
102
{ACAD_REACTORS
330
47
102
}
330
47
100
AcDbScale
 70
     0
300
1/32" = 1'-0"
140
0.03125
141
12.0
290
     0
  0
SCALE
  5
5C
102
{ACAD_REACTORS
330
47
102
}
330
47
100
AcDbScale
 70
     0
300
1/16" = 1'-0"
140
0.0625
141
12.0
290
     0
  0
SCALE
  5
5D
102
{ACAD_REACTORS
330
47
102
}
330
47
100
AcDbScale
 70
     0
300
3/32" = 1'-0"
140
0.09375
141
12.0
290
     0
  0
SCALE
  5
5E
102
{ACAD_REACTORS
330
47
102
}
330
47
100
AcDbScale
 70
     0
300
1/8" = 1'-0"
140
0.125
141
12.0
290
     0
  0
SCALE
  5
5F
102
{ACAD_REACTORS
330
47
102
}
330
47
100
AcDbScale
 70
     0
300
3/16" = 1'-0"
140
0.1875
141
12.0
290
     0
  0
SCALE
  5
60
102
{ACAD_REACTORS
330
47
102
}
330
47
100
AcDbScale
 70
     0
300
1/4" = 1'-0"
140
0.25
141
12.0
290
     0
  0
SCALE
  5
61
102
{ACAD_REACTORS
330
47
102
}
330
47
100
AcDbScale
 70
     0
300
3/8" = 1'-0"
140
0.375
141
12.0
290
     0
  0
SCALE
  5
62
102
{ACAD_REACTORS
330
47
102
}
330
47
100
AcDbScale
 70
     0
300
1/2" = 1'-0"
140
0.5
141
12.0
290
     0
  0
SCALE
  5
63
102
{ACAD_REACTORS
330
47
102
}
330
47
100
AcDbScale
 70
     0
300
3/4" = 1'-0"
140
0.75
141
12.0
290
     0
  0
SCALE
  5
64
102
{ACAD_REACTORS
330
47
102
}
330
47
100
AcDbScale
 70
     0
300
1" = 1'-0"
140
1.0
141
12.0
290
     0
  0
SCALE
  5
65
102
{ACAD_REACTORS
330
47
102
}
330
47
100
AcDbScale
 70
     0
300
1-1/2" = 1'-0"
140
1.5
141
12.0
290
     0
  0
SCALE
  5
66
102
{ACAD_REACTORS
330
47
102
}
330
47
100
AcDbScale
 70
     0
300
3" = 1'-0"
140
3.0
141
12.0
290
     0
  0
SCALE
  5
67
102
{ACAD_REACTORS
330
47
102
}
330
47
100
AcDbScale
 70
     0
300
6" = 1'-0"
140
6.0
141
12.0
290
     0
  0
SCALE
  5
68
102
{ACAD_REACTORS
330
47
102
}
330
47
100
AcDbScale
 70
     0
300
1'-0" = 1'-0"
140
12.0
141
12.0
290
     0
  0
ENDSEC
  0
EOF
